A R G I L E

FR
Français

Satanic Music
The Monotonous Moment Of A Monologue

Originally transcribed by Aymeric Fontaine (darktabs@fr.st). For Questions, comments or corrections : please contact Aymeric Fontaine at darktabs@fr.st .
Visit my personnal website www.darktabs.fr.st for more guitar transcriptions.


PART 1a : (X 2)   0:01			PART 2a : (X 2)   0:41
   BOTH GUITARS				   ACOUSTIC GUITAR
|------(X 2)------|------(X 2)------|	|-----------------------------------------------|
|-----------------|-----------------|	|-----------------------------------------------|
|-----------------|-----------------|	|--------0-----------------------5-555-4-2-0-2--|
|-----------------|--------5--------|	|------2---2-------0-----0----------------------|
|--3------2-2---5-|-5------3--3-----|	|----2-------2---2-----0-------3----------------|
|--1--11110-0-0-3-|-3--3-3------2~--|	|--0-----------3-----2-----1-5------------------|
      ....    .        . .    .


PART 2b :   0:51
   ACOUSTIC GUITAR											   GUITAR2
|-----------------------------------------------------------------------------------------------------|	|------------------|
|-----------0-----------0-----------0-----------------------0-----------0-----------0-----------------|	|------------------|
|---------0---0-------0---0-------0---0-------------------0---0-------0---0-------0---0---------------|	|-12-11------12-14-|
|-------5-------5---4-------4---2-------2-----0-----0---5-------5---4-------4---2-------2-----0-----2-|	|------------------|
|-5-6-7-----------5-----------3-------------2-----0---7-----------5-----------3-------------2-----3---|	|------------------|
|-----------------------------------------3-----2-----------------------------------------3-----5-----|	|------------------|



PART 2a (X 2)   1:02


PART 2c :   1:11
   ACOUSTIC GUITAR
|----------------------------------------------------------------------------------------------------------|
|-----------0-----------0-----------0----------------------------------------------------------------------|
|---------0---0-------0---0-------0---0---------------------4----------------------------------------------|
|-------5-------5---4-------4---2-------2-----0-----0-----5---5-----7----9---7-9----10----10-9-----0-----2-|
|-5-6-7-----------5-----------3-------------2-----0---7-7-------7-9---10---9-----10----10--------2-----3---|
|-----------------------------------------3-----2----------------------------------------------3-----5-----|

   GUITAR1			   GUITAR2
|-------------------|		|-------------------|
|-------------------|		|--12-10-----12-13--|
|--12-11-----12-14--|		|-------------------|
|-------------------|		|-------------------|
|-------------------|		|-------------------|
|-------------------|		|-------------------|



PART 1b :   1:22							PART 3 : (X 4)   1:42
   BOTH GUITARS								   BOTH GUITARS
|------------(X 2)---------------|-------------(X 2)----------------|	|--------------------------------------------|
|--------------------------------|----------------------------------|	|--------------------------------------------|
|--------------------------------|----------------------------------|	|--------------------------------------------|
|--------------------------------|---------5-5-5--------------------|	|---------------------10-9--9-7--7-9---------|
|--3------2-2-2-5--5-5-5-5-5-5-5-|-5-5-5-5-3-3-3-4-4-4-4-4-4-4-4-4--|	|----------------------8-7--7-5--5-7--9-9-9--|
|--1--11110-0-0-3--3-3-3-3-3-3-3-|-3-3-3-3-------2-2-2-2-2-2-2-2-2--|	|--4-3--4-3--00000000-----------------7-7-7--|
      ....  . .    . . . . . . .     . . .   . .   . . . . . . . .	             ........


PART 4 : (X 2)   2:02
   GUITAR1								   GUITAR2 (X 2)
|---------------------------------------------------------------|	|--------------------|
|---------------------------------------------------------------|	|--------------------|
|--------------------------------9------------------------------|	|--------------------|
|--12p11--12--12-11--9-12--11-12---12-11-12-11-7-7/9--9---------|	|--------------------|
|--------------------------------------------------------7-7-9--|	|-------5--5-4--2-5--|
|---------------------------------------------------------------|	|--3p2---------------|



PART 5a :   2:22				PART 5b :   2:22
   BOTH GUITARS					   GUITAR2		GUITAR1 plays PART 5a
|---------------------------------|		|---------------------------------|
|---------------------------------|		|---------------------------------|
|---------------------------------|		|---------------------------------|
|---------5--4-------------5~--4--|		|---------9--8-------------9~--8--|
|---------------------------------|		|---------------------------------|
|--2-1-0--------2-2-1-1-0---------|		|--2-1-0--------2-2-1-1-0---------|
                . . . .				                . . . .


PART 6a :   2:44			PART 6a : (X 2)   2:54
BOTH GTRS  A....... B...........	   BOTH GUITARS	     A................. B..................
|---------|--------|------------|	|-------------------|------------------|-------------------|
|---------|--------|------------|	|-------------------|------------------|-------------------|
|---------|--------|------------|	|-------------------|------------------|-------------------|
|---------|-7--5-4-|-7-9-9-7-4--|	|-------------------|------------------|-------------------|
|----2--5-|-5--3-2-|-5-7-7-5-2--|	|-------------------|-5555553333332222-|-5577775522222222--|
|----0--3-|--------|------------|	|--0000000033333333-|------------------|-------------------|
					   ................   ................   ................


PART 6a (X 2)   3:14
PART 6b (X 2)   3:34


PART 7a :   3:55					PART 7b :   4:05
   GUITAR1 (X 2)	   GUITAR2			   GUITAR1 (X 2)	   GUITAR2 (X 2)	   GUITAR3
|---------------------|	|-----------------|		|---------------------|	|--------------------|	|-----------------|
|---------------------|	|-----------------|		|---------------------|	|-9--10-9--10-9------|	|-----------------|
|-9--10-9--10-9-------|	|-----------------|		|-9--10-9--10-9-------|	|----------------9-7-|	|-----------------|
|----------------10-9-|	|-----------------|		|----------------10-9-|	|--------------------|	|-----------------|
|---------------------|	|-----------------|		|---------------------|	|--------------------|	|-----------------|
|---------------------|	|-0-1-2-3-4-5-6-7-|		|---------------------|	|--------------------|	|-0-1-2-3-4-5-6-7-|
                          ...............								  ...............


PART 8 : (X 4)   4:15

|------------------|
|------------------|
|------------------|
|------------------|
|--2-2--7-7\3-3----|
|--0-0----------3--|
   .


PART 4 (X 2)   4:35
PART 5a   4:55
PART 5b   5:05


PART 9a :   5:17
   BOTH GUITARS		      A.................... B..........................................
|----------------------------|---------------------|-------------------------------------------|
|----------------------------|---------------------|-------------------------------------------|
|----------------------------|---------------------|-------------------------------------------|
|--5-4--5-4--7---------------|---9-10-9-10-9-7-9ah-|----------7-8-9-10-9-10-11-12-11-12-13-14--|
|--3-2--3-2--5-5-5-5-5-5-5-5-|-7-------------------|-7-8-9-10----------------------------------|
|----------------------------|---------------------|-------------------------------------------|
               . . . . . . .   ...............       ........................................


PART 9b :   5:27									GUITAR2 plays PART 9a
   GUITAR1		      A.......................... B.................................................
|----------------------------|---------------------------|--------------------------------------------------|
|----------------------------|---------------------------|--------------------------------------------------|
|----------------------------|---------------------------|--------------------------------------------------|
|--5-4--5-4--7---------------|----12-13-12-13-12-10-12ah-|-------------10-11-12-13-12-13-14-15-13-14-15-16--|
|--3-2--3-2--5-5-5-5-5-5-5-5-|-10------------------------|-10-11-12-13--------------------------------------|
|----------------------------|---------------------------|--------------------------------------------------|
               . . . . . . .   ....................        ...............................................


PART 10 : (X 4)   5:37
   BOTH GUITARS
|------------------------------------|
|------------------------------------|
|------------------------------------|
|------------------------------------|
|------------------------------------|
|--00-00-00021-11-11132-22-222433ah--|
   .. .. ..... .. ..... .. .....


PART 2a (X 2)   6:03
PART 2c   6:13


PART 2e : (X 2)   6:24			PART 2f : (X 2)   6:34
   GUITAR1  OTHERS plays PART 2a	   GUITAR3		         A..... B......	     OTHERS plays PART 2c
|----------------------|		|-------------------------------|------|-------|
|----------------------|		|-------------------------------|------|-------|
|----------------------|		|-------------------------------|------|-------|
|----------------------|		|--9-------7-------5------------|------|-------|
|--2--5-4-3--33333333--|		|--7-77777-5-55555-3-33333-5----|-4----|-7-----|
|--0--3-2-1--11111111--|		|--------------------------3-33-|-2-22-|-5-55--|
	     ........			     .....   .....   .....   ..     ..     ..


PART 2e   6:44


PART 2f : (X 2)   6:54
   GUITAR3					OTHERS plays PART 2c
|----------------------------------------------------------------------|
|----------------------------------------------------------------------|
|----------------------------------------------------------------------|
|--9-------7-------5-----------------9-------4-------7-----------------|
|--7-77777-5-55555-3-33333-5----4----7-77777-5-55555-333333-5----7-----|
|--------------------------3-33-2-22------------------------3-33-5-55--|
     .....   .....   .....   ..   ..   .....   .....  .....   ..   ..

Last updated: 3 May 2002