A R G I L E

FR
Français

Summerian Madrigal
Holy Bible volume IV

Originally transcribed by Aymeric Fontaine (darktabs@fr.st). For Questions, comments or corrections : please contact Aymeric Fontaine at darktabs@fr.st .
Visit my personnal website www.darktabs.fr.st for more guitar transcriptions.

(*) : play INTRO, INTRO2 & INTRO4 with a tune to E ;
      Tune down 1 step (to D) for the rest of the song

INTRO(*) : (X 4)   0:00			INTRO2(*) : (X 4)   0:09
   GUITAR1		   GUITAR2	   GUITAR3		OTHERS plays INTRO (X 4)
|-------------------|	|--0--0--0--|	|--------------------------------------------------------------|
|-------------------|	|-----------|	|--3h4h5-5-4-5--------3---------------5------------------------|
|----0---------0----|	|-----------|	|---------------4-4-5---5-4---------4---5-4--2-----------------|
|------------2---2--|	|-----------|	|----------------------------2-4-5-------------5-5/7--5--4--3--|
|------2-2/3--------|	|-----------|	|--------------------------------------------------------------|
|--0----------------|	|-----------|	|--------------------------------------------------------------|



INTRO3 :   0:19						INTRO4(*) :   0:29
   GUITAR3		OTHERS plays INTRO (X 4)	   GUITAR3
|--0-2-5-3--3-2-0-2-3-2-3---0-2-5-3-7-5-2/3-5-7-5-3--|	|--/9------------------------7---------------9-9--|
|----------------------------------------------------|	|------10-10-9-9-10-10--9-10----10-9h10p9-7-------|
|----------------------------------------------------|	|-------------------------------------------------|
|----------------------------------------------------|	|-------------------------------------------------|
|----------------------------------------------------|	|-------------------------------------------------|
|----------------------------------------------------|	|-------------------------------------------------|



PART 1a :   0:38							PART 1b :   0:48
   BOTH GUITARS								   BOTH GUITARS			A.... B.....
|------------------------------------------------------------------|	|------------------------------|-----|------|
|------------------------------------------------------------------|	|------------------------------|-----|------|
|------------------------------------------------------------------|	|------------------------------|-----|------|
|----------9-7-----------------------------9-7---------------------|	|-----------9-7----------------|-----|------|
|--2-------7-5-7-5----2---3---3-2------2---7-5-7-5----2---3---3-2--|	|------2----7-5-7-5----2---3---|-3-2-|-3-3--|
|--0-0-0-0-7-5-5-3--0-0-0-1-1-1-0--0-0-0-0-7-5-5-3--0-0-0-1-1-1-0--|	|--00000-00-7-5-5-3--0-0-0-1-1-|-1-0-|-1-1--|
     . . .          .   .   .      . .   .          .   .   .		   ....  ..          .   .   .         . .


PART 2a : (X 2)   1:16				PART 2b : (X 2)   1:26
   BOTH GUITARS					   BOTH GUITARS
|-----------------------------------|		|------------------------------------|
|-----------------------------------|		|------------------------------------|
|-----------------------------------|		|------------------------------------|
|----------11-9---------------------|		|-----------11-9---------------------|
|--4-4-4-2--9-7-9-7----4---5---5-4--|		|------4-----9-7-9-7----4---5---5-4--|
|--2-2-2-0--9-7-7-5--0-2-0-3-0-3-2--|		|--22222-00--9-7-7-5--0-2-0-3-0-3-2--|
     . . .           .   .   .        		   ....  ..           .   .   .


PART 1a   1:36
PART 1b   1:45


END :   1:55
   BOTH GUITARS
|-------------|
|-------------|
|-------------|
|---9-9-9-9---|
|---7-7-7-7---|
|---7-7-7-7---|



PART 3 : (X 4)   1:57
   GUITAR1
|----------------------------------------------------------------4--|
|----------------------------------------------------------4-6-8----|
|----------------------------------------------------4-5-7----------|
|--5-4-5---------------------------------------3-5-7----------------|
|--3-2-3-------6-----5----6---5-3--------3-5-7----------------------|
|--3-2-3-0-0-0-4-0-0-3--0-4-0-3-1--3-4-7----------------------------|
         . . .   . .    .   .

   GUITAR2
|------------------------------------------------------------------7-8--|
|--------------------------------------------------------------8-9------|
|-------------------------------------------------------7-8-10----------|
|--5-4-5-----------------------------------------6-9-10-----------------|
|--3-2-3-------6-----5----6---5-3---------6-9-10------------------------|
|--3-2-3-0-0-0-4-0-0-3--0-4-0-3-1--7-8-10-------------------------------|
         . . .   . .    .   .


END2 :   2:21				END3 :   2:45
   BOTH GUITARS				   BOTH GUITARS
|---------------------------|		|----------------|
|---------------------------|		|----------------|
|---------------------------|		|----------------|
|---------------------------|		|---11-11-11-11--|
|--3---------------3--------|		|----9--9--9--9--|
|--1-1-1-1-1-1-1-1-1-1-1-1--|		|----9--9--9--9--|
     . . . . . . .   . . .


PART 3 (X 4)   2:48


END4 :   3:12				PART 4 : (X 4)   3:36
   BOTH GUITARS				   BOTH GUITARS
|-----------------------------------|	|-----------------------------------------------|
|-----------------------------------|	|-----------------------------------------------|
|-----------------------------------|	|-----------------------------------------------|
|-----------------------------------|	|--------------------------------------8-7-7-8--|
|--3---------------3----------------|	|-------------5--8-7-5-7------------3--6-5-5-6--|
|--1-1-1-1-1-1-1-1-1-1-1-1-1---1-1--|	|--4--5-4-2-4------------2--3-2-0-2----6-5-5-6--|
     . . . . . . .   . . . .   . .	   ..................................


PART 5a :   4:14		PART 5b :   4:24
   BOTH GUITARS			   GUITAR1				   GUITAR2	   GUITAR3
|---(X 3)--|------------|	|---(X 3)--|--------------------|	|--12\---15\--|	|--12\---12\--|
|----------|------------|	|----------|--------------------|	|-------------|	|-------------|
|----------|------------|	|----------|--------------------|	|-------------|	|-------------|
|--7---7-9-|-10-7--5-4--|	|--7---7-9-|-10-7--5-7----------|	|-------------|	|-------------|
|--5-5-5-7-|--8-5--3-2--|	|--5-5-5-7-|--8-5--3-5-5-5-5-5--|	|-------------|	|-------------|
|--5-5-5-7-|--8-5--3-2--|	|--5-5-5-7-|--8-5--3-5-5-5-5-5--|	|-------------|	|-------------|
     .				     .		       . . . .


PART 5c :   4:33
   BOTH GUITARS     A.................................. B..................................
|------(X 2)-------|-----------------------------------|-----------------------------------|
|------------------|-----------------------------------|-----------------------------------|
|------------------|-----------------------------------|-----------------------------------|
|--7---7-9---------|-7---7-9-----10-7-----5-4----------|-7---7-9-----10-7-----5-7----------|
|--5-5-5-7-7-7-7-7-|-5-5-5-7-7-7--8-5-5-5-3-2-2-2-2-2--|-5-5-5-7-7-7--8-5-5-5-3-5-5-5-5-5--|
|--5-5-5-7-7-7-7-7-|-5-5-5-7-7-7--8-5-5-5-3-2-2-2-2-2--|-5-5-5-7-7-7--8-5-5-5-3-5-5-5-5-5--|
     .	   . . . .     .     . .      . .     . . . .      .     . .      . .     . . . .


PART 5c :   4:53
   GUITAR1
|---------------------------------------------------------------------7-----------------------------------------------|
|--------8-7----------------------------------------------------8-8-8---10-8-7-7-8-8----------------------------------|
|--9-9-9-----9-7-7-9-9----------------------7-7-------------------------------------------------------------7-7----7--|
|-----------------------7-7-9-9--9-9-9-10-7-----10-9--9-9-9-9-------------------------7-7-9-9--9-9ah-9-10-7-----10----|
|---------------------------------------------------------------------------------------------------------------------|
|---------------------------------------------------------------------------------------------------------------------|


   GUITAR2	    A.................................. B..................................
|------(X 2)-------|-----------------------------------|-----------------------------------|
|------------------|-----------------------------------|-----------------------------------|
|------------------|-----------------------------------|-----------------------------------|
|--7---7-9---------|-7---7-9-----10-7-----5-4----------|-7---7-9-----10-7-----5-7----------|
|--5-5-5-7-7-7-7-7-|-5-5-5-7-7-7--8-5-5-5-3-2-2-2-2-2--|-5-5-5-7-7-7--8-5-5-5-3-5-5-5-5-5--|
|--5-5-5-7-7-7-7-7-|-5-5-5-7-7-7--8-5-5-5-3-2-2-2-2-2--|-5-5-5-7-7-7--8-5-5-5-3-5-5-5-5-5--|
     .	   . . . .     .     . .      . .     . . . .      .     . .      . .     . . . .

Last updated: 13 January 2003